Wednesday, September 19, 2012

SCANDAL - Taiyou Scandalous Bass Vocal Tab

Download Tab:
GP5
PDF [Bass, Vocal]
MIDI

Bass preview:
     Q    E  E  E  E  E  E     E  E  E  E  E  E  E   E  
G||-------------------------|---------------------------|
D||-------------------------|---------------------------|
A||--4----4--4--4--4--4--4--|--4--4--4--4--4--4--4s--7--|
E||-------------------------|---------------------------|


  Q    E  E  E  E  E  E     E  E  E   Q    E  E  E   
-------------------------|---------------------------|
-------------------------|---------------------------|
--7----7--7--7--7--7--7--|--7--6--7s--9----7--6------|
-------------------------|-----------------------7\--|


  Q    E  E  E  E  E  E     E  E  E  E  E  E  E  E  
-------------------------|--------------------------|
-------------------------|--------------------------|
-------------------------|-----------------------0--|
--2----2--2--2--2--2--2--|--2--2--2--2--2--4--4-----|


  E  E  E  E  E  E  E  E     E  E  E  E  E  E  E  E  
--------------------------|--------------------------|
--------------------------|--------------------------|
--L--0--0--0--0--0--0--2--|--L--2--2--2--2-----3--3--|
--------------------------|-----------------4--------|


  Q    E  E  E  E  E  E     E  E  E  E  E  E  E   E  
-------------------------|---------------------------|
-------------------------|---------------------------|
--4----4--4--4--4--4--4--|--4--4--4--4--4--4--4s--7--|
-------------------------|---------------------------|

No comments:

Post a Comment